10.06.09 Musicians: Chords or Tabs for R7 songs

by gregsclass3182

If any musicians have chords or tabs for any Relentless7 songs, please hit me up.
I'm most interested in "Keep it Together" and "Number with no Name" but any songs would be most appreciated!
-Greg

Comments/Reviews

aaronmannes's picture

You got it right but the song is in F.... so tune to open F.

JackHarper's picture

hey here is how i play keep it...

I tune my guitar to DADDAD I don't know if this is correct with Harper, but it works well with the chords and the lead notes.

Main part is...

(Bridge Pickup)
D--12--12------10-9-10----5-4-5-4-5-4-5-0
A--12--12------10-9-10----5-4-5-4-5-4-5-0
D--12--12------10-9-10----5-4-5-4-5-4-5-0
D--12--12------10-9-10----5-4-5-4-5-4-5-0
A--12--12------10-9-10----5-4-5-4-5-4-5-0
D--12--12------10-9-10----5-4-5-4-5-4-5-0

Be sure to have the amp cranking with your favorite Wah

Chorus go something like this. Add fills and be sure to add that vibrato you can't help but to produce on the slide

(Flip to Neck Pickup)
D----------------3---5-5--6-3------
A------3---5-5----------------5-3-5
D----------------------------------
D----------------------------------
A----------------------------------
D----------------------------------

Hope this helps,

jack harper

aaronmannes's picture

You got the structures right but the song is in F im pretty sure. So tune to open F and then you can play along

JackHarper's picture

wow open F that's a rare one

Open F: low-high; F-A-C-F-C-F ???

IandI Irie's picture

I think Ben normally tunes to Open F like this CFCFCf, which is not the usual open F but its a little easier on the neck. I guess technically one might call it Open F5.